Ketika Dua Hati Menyatu

Situs: liriknasyid.com
Munsyid: Seismic
Intro :
D Bm G A
D Bm G A

D Bm
Saat dua hati berjanji
G A
Tuk arungi hidup di jalan-Nya
D Bm
Allah kan berkahi mereka
G A
Kala dalam doa kala dalam asa

D Bm
Menjadilah mentari bening pagi
G A
Terangi bumi terangi hati
D Bm
Menjadilah keheningan malam
G A7
Kala berjuta insan larut dalam doa

D
Selamat datang kawan
Bm
Di duniamu yang baru
G A
Kudoakan semoga bahagia

D
Selamat datang kawan
Bm
Di duniamu yang baru
G A
Kudoakan semoga bahagia

Instrument
D Bm G A
D Bm G A

D Bm
When two people get marry
G A
To take the life together on the way
D Bm
Allah shall give them one more bless
G
When life in love and try
A
When life in love and pray

D Bm
Just be the sunshine in the morning day
G A
Give it shine to the world let everyone to see
D Bm
Just be the quiteness in the night
G A7
When many people cry when many people pray

D
Welcome to the new world my friends
Bm
You both have to face all in love
G
All I could do just pray
A
And I do I pray

D
Welcome to the new world my friends
Bm
You both have to face all in love
G
All I could do just pray
A D
And I do I pray..

Ending :
D Bm G A D

==================DAFTAR KUNCI====================

KUNCI A KUNCI A7
i i
|-----|-----|-----|X |-----|-----|-----|X
A |-----|-----|-----|0 A |-----|-----|-----|0
E |-----|--1--|-----| E |-----|-----|--1--|
A |-----|--2--|-----| G |-----|-----|-----|
C#|-----|--3--|-----| C#|-----|-----|--3--|
E |-----|-----|-----|0 E |-----|-----|-----|


KUNCI Bm KUNCI G
ii i
|-----|-----|-----|X G |--2--|-----|-----|
B |-----|-----|--1--| B |-----|--1--|-----|
F#|--3--|-----|--1--| D |-----|-----|-----|0
B |--4--|-----|--1--| G |-----|-----|-----|0
D |-----|--2--|--1--| B |-----|-----|-----|0
F#|-----|-----|--1--| D |--3--|-----|-----|

KUNCI D
i
|-----|-----|-----|X
A |-----|-----|-----|X
E |-----|-----|-----|0
A |-----|--1--|-----|
C |--3--|-----|-----|
E |-----|--2--|-----|


Catatan :
simbol i menandakan kolom gitar pertama
simbol ii menandakan kolom gitar ke dua
simbol X berarti senar tersebut tidak dibunyikan
simbol 0 berarti senar dibunyikan tetapi tanpa tekanan jari.
angka 1 berarti senar ditekan menggunakan jari telunjuk.
angka 2 berarti senar ditekan menggunakan jari tengah
angka 3 berarti senar ditekan menggunakan jari manis
angka 4 berarti senar ditekan menggunakan jari kelingking

Chord ini hanya sebagai pendidikan atau hiburan
dan tidak untuk kepentingan yang lain
Pengirim : Agus W
30/11/2005   ambil lirik   8754 klik

Nasyid yang mungkin berhubungan:...
Ibu Doakanlah Rindu Aku Penantian Syukur Episode Perjalanan Adalah Engkau