Suci Sekeping Hati

Situs: liriknasyid.com
Album: Kembara Cinta
Munsyid: Saujana
C
Sekeping hati dibawa berlari
F G
Jauh melalui jalanan sepi
F G
Jalan kebenaran indah terbentang
F G C
Di depan matamu para pejuang

C
Tapi jalan kebenaran
F C
Tak akan selamanya sunyi
F G
Ada ujian yang datang melanda
F G C
Ada perangkap menunggu mangsa

C F
Akan kuatkah kaki yang melangkah
G C
Bila disapa duri yang menanti
F G
Akan kaburkah mata yang meratap
F G C
Pada debu yang pastikan hinggap

C
Mengharap senang dalam berjuang
F G
Bagai merindu rembulan di tengah siang
F G
Jalannya tak seindah sentuhan mata
F G C
Pangkalnya jauh hujungnya belum tiba


==================DAFTAR KUNCI===================

KUNCI C KUNCI F
i i
|-----|-----|-----|X F |-----|-----|--1--|
C |--3--|-----|-----| C |--3--|-----|--1--|
E |-----|--2--|-----| F |--4--|-----|--1--|
G |-----|-----|-----|0 A |-----|--2--|--1--|
C |-----|-----|--1--| C |-----|-----|--1--|
E |-----|-----|-----|0 F |-----|-----|--1--|


KUNCI G
i
G |--2--|-----|-----|
B |-----|--1--|-----|
D |-----|-----|-----|0
G |-----|-----|-----|0
B |-----|-----|-----|0
D |--3--|-----|-----|


Catatan :
simbol i menandakan kolom gitar pertama
simbol X berarti senar tersebut tidak dibunyikan
simbol 0 berarti senar dibunyikan tetapi tanpa tekanan jari.
angka 1 berarti senar ditekan menggunakan jari telunjuk.
angka 2 berarti senar ditekan menggunakan jari tengah
angka 3 berarti senar ditekan menggunakan jari manis
angka 4 berarti senar ditekan menggunakan jari kelingking

Chord ini hanya sebagai pendidikan atau hiburan
dan tidak untuk kepentingan yang lain
Pengirim : Agus W
22/11/2005   ambil lirik   11825 klik

Nasyid yang mungkin berhubungan:...
Hadiah Buatmu Teman Hadiah Buatmu Teman Bebas Palestin Bulan Bintang Selamat Tinggal Ibuku