Ya Robbana

Situs: liriknasyid.com
Munsyid: Opick feat Ust. Jefri
Am E Am E
Ya Robbana, Robbana, Robbana
Am E Am E
Ya Robbana, Robbana, Robbana
Am E Am E
Ya Robbana, Robbana, Robbana....

*)

Am E F G
Ya Tuhan kami yang menguasai hati
Am E F G
Kami tlah lupa senantiasa bersalah

Am E F G
Hanya pada-Mu hati ingin kembali
Am E F G
Kami tlah sesat kami tlah aniaya

Am E
Jika tanpa ampunan-Mu
F C Em
Jika tanpa rahmad dan cinta-Mu
Am E F G C E
Sesungguhnya kami adalah orang merugi

Am E Am E
Ya Robbana, Robbana, Robbana
Am E Am E
Ya Robbana, Robbana, Robbana....

Back to *)

Am E Am E
Ya Robbana, Robbana, Robbana
Am E Am E
Ya Robbana, Dzolamna, Anfusana
Am E Am
Wa illam tagfirlana
E C G Am
Watarqamna.... lanakunanna minal khosyirin....

Am E Am E
Ya Robbana, Robbana, Robbana
Am E Am E
Ya Robbana, Dzolamna, Anfusana
Am E Am
Wa illam tagfirlana
E C G Am
Watarqamna.... lanakunanna minal khosyirin....


==================DAFTAR KUNCI===================

KUNCI Am KUNCI C
i i
|-----|-----|-----|X |-----|-----|-----|X
A |-----|-----|-----|0 C |--3--|-----|-----|
E |-----|--2--|-----| E |-----|--2--|-----|
A |-----|--3--|-----| G |-----|-----|-----|0
C |-----|-----|--1--| C |-----|-----|--1--|
E |-----|-----|-----|0 E |-----|-----|-----|0


KUNCI E KUNCI Em
i i
E |-----|-----|-----|0 E |-----|-----|-----|0
B |-----|--2--|-----| B |-----|--2--|-----|
E |-----|--3--|-----| E |-----|--3--|-----|
G#|-----|-----|--1--| G |-----|-----|-----|
B |-----|-----|-----|0 B |-----|-----|-----|0
E |-----|-----|-----|0 E |-----|-----|-----|0


KUNCI F KUNCI G
i i
F |-----|-----|--1--| G |--2--|-----|-----|
C |--3--|-----|--1--| B |-----|--1--|-----|
F |--4--|-----|--1--| D |-----|-----|-----|0
A |-----|--2--|--1--| G |-----|-----|-----|0
C |-----|-----|--1--| B |-----|-----|-----|0
F |-----|-----|--1--| D |--3--|-----|-----|


Catatan :
simbol i menandakan kolom gitar pertama
simbol X berarti senar tersebut tidak dibunyikan
simbol 0 berarti senar dibunyikan tetapi tanpa tekanan jari.
angka 1 berarti senar ditekan menggunakan jari telunjuk.
angka 2 berarti senar ditekan menggunakan jari tengah
angka 3 berarti senar ditekan menggunakan jari manis
angka 4 berarti senar ditekan menggunakan jari kelingking

Chord ini hanya sebagai pendidikan atau hiburan
dan tidak untuk kepentingan yang lain
Pengirim : Agus W
22/11/2005   ambil lirik   26537 klik