Rindu Illahi

Situs: liriknasyid.com
Munsyid: Dawai Hati
Am
Rindu hatiku pada-Mu Robbi
Dm G C
Ingin ku berjumpa dengan-Mu
Am
Apakah amal dan nista diri
Dm G C
Belenggu bertemu dengan-Mu

F G C Am
Adakah rindu dekat dengan-Mu
F G Am E
Penentram batin jiwaku

Am
Rindu hatiku pada-Mu Robbi
Dm G C
Ingin ku berjumpa dengan-Mu
Am
Apakah amal dan nista diri
Dm G C
Belenggu bertemu dengan-Mu

F G C Am
Adakah rindu dekat dengan-Mu
F G Am E
Penentram batin jiwaku

Am Dm
Rindu, rindu, rindu pada Illahi
G C
Rindu hati ini pada-Mu Robbi
Am Dm
Tiadalah yang dapat menandingi
C G Am E
Segala puja kuasa-Mu Robbi

Am Dm
Ampunkan sgala dosa dan nista
G C
Yang tersembunyi atau yang nyata
Am Dm
Pada siapa lagi kami meminta
Em E Am
Selain Engkau Yang Kuasa

F G C Am
Ubahlah nista jadi mulia
F G C Am
Ubahlah dosa jadi magfiroh
F G C Am
Lindungi hamba dari segala
F G Am
Berkata dusta dan nista


==================DAFTAR KUNCI===================

KUNCI Am KUNCI C
i i
|-----|-----|-----|X |-----|-----|-----|X
A |-----|-----|-----|0 C |--3--|-----|-----|
E |-----|--2--|-----| E |-----|--2--|-----|
A |-----|--3--|-----| G |-----|-----|-----|0
C |-----|-----|--1--| C |-----|-----|--1--|
E |-----|-----|-----|0 E |-----|-----|-----|0


KUNCI E KUNCI Em
i i
E |-----|-----|-----|0 E |-----|-----|-----|0
B |-----|--2--|-----| B |-----|--2--|-----|
E |-----|--3--|-----| E |-----|--3--|-----|
G#|-----|-----|--1--| G |-----|-----|-----|
B |-----|-----|-----|0 B |-----|-----|-----|0
E |-----|-----|-----|0 E |-----|-----|-----|0

KUNCI Dm KUNCI F
i i
|-----|-----|-----|X F |-----|-----|--1--|
|-----|-----|-----|X C |--3--|-----|--1--|
D |-----|-----|-----|0 F |--4--|-----|--1--|
A |-----|--2--|-----| A |-----|--2--|--1--|
D |--3--|-----|-----| C |-----|-----|--1--|
F |-----|-----|--1--| F |-----|-----|--1--|

KUNCI G
i
G |--2--|-----|-----|
B |-----|--1--|-----|
D |-----|-----|-----|0
G |-----|-----|-----|0
B |-----|-----|-----|0
D |--3--|-----|-----|

Catatan :
simbol i menandakan kolom gitar pertama
simbol X berarti senar tersebut tidak dibunyikan
simbol 0 berarti senar dibunyikan tetapi tanpa tekanan jari.
angka 1 berarti senar ditekan menggunakan jari telunjuk.
angka 2 berarti senar ditekan menggunakan jari tengah
angka 3 berarti senar ditekan menggunakan jari manis
angka 4 berarti senar ditekan menggunakan jari kelingking

Chord ini hanya sebagai pendidikan atau hiburan
dan tidak untuk kepentingan yang lain
Pengirim : Agus W
17/11/2005   ambil lirik   12531 klik

Nasyid yang mungkin berhubungan:...
Rindu Illahi Kidung Diri Rindu Hamba Sesal Tahajud Diri