Ayah

Situs: liriknasyid.com
Munsyid: Anak Surau
C G C G
Untukmu kami mengabdi

C F G C
Dimana akan dicari
G
Satu harapan di dalam hati
C C7 F
Selalu kami ingin bertemu
C G C C7
Denganmu ayah terkasih

F G
Untuk ayah tercinta
C Am
Kami ingin bernyanyi
F G C C7
Dengan air mata di pipi

F G
Ayah dengarkanlah
C Am
Kami ingin betemu
F G C G
Walau hanya dalam mimpi

C F G C
Walaupun hari berganti
G
Kami berharap seindah dulu
C C7 F
Datanglah kami rindu padamu
C G C C7
Untukmu kami mengabdi

F G
Untuk ayah tercinta
C Am
Kami ingin bernyanyi
F G C C7
Dengan air mata di pipi

F G
Ayah dengarkanlah
C Am
Kami ingin betemu
F G C G
Walau hanya dalam mimpi

F G
Ayah dengarkanlah
C Am
Kami ingin bertemu
F G C
Walau hanya dalam mimpi

==================DAFTAR KUNCI===================

KUNCI Am KUNCI C
i i
|-----|-----|-----|X |-----|-----|-----|X
A |-----|-----|-----|0 C |--3--|-----|-----|
E |-----|--2--|-----| E |-----|--2--|-----|
A |-----|--3--|-----| G |-----|-----|-----|0
C |-----|-----|--1--| C |-----|-----|--1--|
E |-----|-----|-----|0 E |-----|-----|-----|0

KUNCI C7 KUNCI F
i i
|-----|-----|-----|X F |-----|-----|--1--|
C |--3--|-----|-----|X C |--3--|-----|--1--|
E |-----|--2--|-----|0 F |--4--|-----|--1--|
A#|--4--|-----|-----| A |-----|--2--|--1--|
C |-----|-----|--1--| C |-----|-----|--1--|
E |-----|-----|-----| F |-----|-----|--1--|

KUNCI G
i
G |--2--|-----|-----|
B |-----|--1--|-----|
D |-----|-----|-----|0
G |-----|-----|-----|0
B |-----|-----|-----|0
D |--3--|-----|-----|

Catatan :
simbol i menandakan kolom gitar pertama
simbol X berarti senar tersebut tidak dibunyikan
simbol 0 berarti senar dibunyikan tetapi tanpa tekanan jari.
angka 1 berarti senar ditekan menggunakan jari telunjuk.
angka 2 berarti senar ditekan menggunakan jari tengah
angka 3 berarti senar ditekan menggunakan jari manis
angka 4 berarti senar ditekan menggunakan jari kelingking

Chord ini hanya sebagai pendidikan atau hiburan
dan tidak untuk kepentingan yang lain
Pengirim : Agus W
17/11/2005   ambil lirik   7273 klik

Nasyid yang mungkin berhubungan:...
Pengendalian Diri Ayah