Demi Cinta Suci

Situs: liriknasyid.com
Album: See You D IPT
Munsyid: Unic
Bm F#m Bm
Pernah hatiku luka pedih
F#m G A Bm
Kerana dicalari cinta penuh duri
F#m Bm
Lemas aku dalam dilema
F#m G A Bm F#m
Kata janji manis sungguh tak bermakna.....


C/O :
Bm G A D
Mencarimu kasih bagai mencari mutiara putih
G A D Bm
Walau ke dasar lautan sanggup ku selami
G A D Bm
Namun tak percaya apa yang telah aku terjumpa
G A Bm
Kau sebutir pasir tak berharga

G A D
Demi cinta yang suci
G Em A Bm F#m
Ku rela korbankan kepentingan diri...
G A D
Demi sinar bahagia
G Em A Bm F#m
Ku hambakan diri pada-Nya yang Esa.....


Bm G A D
Baru kini ku rasai nikmatnya cinta yang suci
G A D Bm
Tiada terbanding dengan cinta yang kau beri
G A D Bm
Ranjau yang berduri akan aku tabah menempuhnya
G A Bm
Menyubur iman di dalam jiwa


G A D
Demi cinta yang suci
G Em A Bm F#m
Ku rela korbankan kepentingan diri...
G A D
Demi sinar bahagia
G Em A Bm F#m
Ku hambakan diri pada-Nya yang Esa.....
G A D
Demi cinta hakiki
G Em A Bm F#m
Ku sanggup redahi apa yang terjadi


Bm F#m Bm
Apalah erti cinta suci
F#m G A Bm F#m
Andai janji-janji sering dimungkiri
Bm F#m Bm
Apalah erti cinta murni
F#m G A Bm
Andai kata-kata sering didustai


==================DAFTAR KUNCI====================

KUNCI A KUNCI B
i ii
|-----|-----|-----|X |-----|-----|-----|X
A |-----|-----|-----|0 B |-----|-----|--1--|
E |-----|--1--|-----| F#|--2--|-----|--1--|
A |-----|--2--|-----| B |--3--|-----|--1--|
C#|-----|--3--|-----| D#|--4--|-----|--1--|
E |-----|-----|-----|0 F#|-----|-----|--1--|


KUNCI Bm KUNCI G
ii i
|-----|-----|-----|X G |--2--|-----|-----|
B |-----|-----|--1--| B |-----|--1--|-----|
F#|--3--|-----|--1--| D |-----|-----|-----|0
B |--4--|-----|--1--| G |-----|-----|-----|0
D |-----|--2--|--1--| B |-----|-----|-----|0
F#|-----|-----|--1--| D |--3--|-----|-----|

KUNCI D KUNCI F#m
i ii
|-----|-----|-----|X F#|-----|-----|--1--|
A |-----|-----|-----|X C#|--3--|-----|--1--|
E |-----|-----|-----|0 F#|--4--|-----|--1--|
A |-----|--1--|-----| A |-----|-----|--1--|
C |--3--|-----|-----| C#|-----|-----|--1--|
E |-----|--2--|-----| F#|-----|-----|--1--|

KUNCI Em
i
E |-----|-----|-----|0
B |-----|--2--|-----|
E |-----|--3--|-----|
G |-----|-----|-----|
B |-----|-----|-----|0
E |-----|-----|-----|0


Catatan :
simbol i menandakan kolom gitar pertama
simbol ii menandakan kolom gitar ke dua
simbol X berarti senar tersebut tidak dibunyikan
simbol 0 berarti senar dibunyikan tetapi tanpa tekanan jari.
angka 1 berarti senar ditekan menggunakan jari telunjuk.
angka 2 berarti senar ditekan menggunakan jari tengah
angka 3 berarti senar ditekan menggunakan jari manis
angka 4 berarti senar ditekan menggunakan jari kelingking

Chord ini hanya sebagai pendidikan atau hiburan
dan tidak untuk kepentingan yang lain
Pengirim : kank_agus
11/06/2005   ambil lirik   17909 klik

Nasyid yang mungkin berhubungan:...
Kerana Ku Cinta Ku Berserah Senandung Aidil Fitri Semerbak Aidil Fitri Joget Lebaran