Indahnya Alam

Situs: liriknasyid.com
Album: Alami
Munsyid: Alarm Me
D Bbm Bm
Subhanallah....
G A
hu.. u.. u....

D Bm
Indahnya alam ciptaan Tuhan,
G A
Alangkah damainya ditepian pantai
D Bm
Disitu terserlah kebesaran-Mu
G A D
Ya Allah bagi mereka yang cinta pada-Mu

D Bm
Indahnya langit tidak bertiang
G A
Lautan luas terbentang
D F#m Bm
Fajar dan senja silih berganti
G A D
Semuanya tunduk dan patuh pada-Mu


Bm A D Bm
Alangkah besarnya nikmat-Mu pada hamba di sini
G A B Bm
Betapa hebatnya kasih-Mu...uuu
G A D
Inilah pujian kami pada-Mu
A G D
Subhanallah

D Bm
Indahnya alam ciptaan Tuhan,
G A
Alangkah damainya ditepian pantai
D Bm
Disitu terserlah kebesaran-Mu
G A D
Ya Allah bagi mereka yang cinta pada-Mu

D Bm
Indahnya langit tidak bertiang
G A
Lautan luas terbentang
D F#m Bm
Fajar dan senja silih berganti
G A D
Semuanya tunduk dan patuh pada-Mu

Bm A D Bm
Alangkah besarnya nikmat-Mu pada hamba di sini
G A B Bm
Betapa hebatnya kasih-Mu...uuu
G A D
Inilah pujian kami pada-Mu
A G D
Subhanallah

Bm A D Bm
Alangkah besarnya nikmat-Mu pada hamba di sini
G A B Bm
Betapa hebatnya kasih-Mu...uuu
G A D Bm
Besarnya nikmat-Mu pada hamba di sini
G A B Bm
Betapa hebatnya kasih-Mu...uuu
G A D
Inilah pujian kami pada-Mu
A G D
Subhanallah

D Bm
Indahnya bintang begemerlapan,
G A
Meriahkan malam yang kesunyian
D Bm
Mergastua warnai alam maya
G A D
Mengalunkan madah mengakui Kau Maha Besar
G A
Kau Maha Besar....
D Bm
Kau Maha Besar....
G A
Kau Maha Besar....
D
Ya.. Allah...

==================DAFTAR KUNCI====================

KUNCI A KUNCI B
i ii
|-----|-----|-----|X |-----|-----|-----|X
A |-----|-----|-----|0 B |-----|-----|--1--|
E |-----|--1--|-----| F#|--2--|-----|--1--|
A |-----|--2--|-----| B |--3--|-----|--1--|
C#|-----|--3--|-----| D#|--4--|-----|--1--|
E |-----|-----|-----|0 F#|-----|-----|--1--|


KUNCI Bm KUNCI Bbm
ii i
|-----|-----|-----|X |-----|-----|-----|X
B |-----|-----|--1--| Bb|-----|-----|--1--|
F#|--3--|-----|--1--| F |--3--|-----|--1--|
B |--4--|-----|--1--| Bb|--4--|-----|--1--|
D |-----|--2--|--1--| Db|-----|--2--|--1--|
F#|-----|-----|--1--| F |-----|-----|--1--|

KUNCI D KUNCI F#m
i ii
|-----|-----|-----|X F#|-----|-----|--1--|
|-----|-----|-----|X C#|--3--|-----|--1--|
E |-----|-----|-----|0 F#|--4--|-----|--1--|
A |-----|--1--|-----| A |-----|-----|--1--|
C |--3--|-----|-----| C#|-----|-----|--1--|
E |-----|--2--|-----| F#|-----|-----|--1--|

KUNCI G
i
G |--2--|-----|-----|
B |-----|--1--|-----|
D |-----|-----|-----|0
G |-----|-----|-----|0
B |-----|-----|-----|0
D |--3--|-----|-----|

Catatan :
simbol i menandakan kolom gitar pertama
simbol ii menandakan kolom gitar ke dua
simbol X berarti senar tersebut tidak dibunyikan
simbol 0 berarti senar dibunyikan tetapi tanpa tekanan jari.
angka 1 berarti senar ditekan menggunakan jari telunjuk.
angka 2 berarti senar ditekan menggunakan jari tengah
angka 3 berarti senar ditekan menggunakan jari manis
angka 4 berarti senar ditekan menggunakan jari kelingking

Chord ini hanya sebagai pendidikan atau hiburan
dan tidak untuk kepentingan yang lain.
Pengirim : kank_agus
11/06/2005   ambil lirik   8622 klik

Nasyid yang mungkin berhubungan:...
Ayuh... Bangun Semula Raspodi Perjuangan Tangan Itu Tak Bermata Alami Bulan Bulan Islam